Rabu, 11 Juli 2012

Five Minutes-Salah Apa


[intro] F#m D A E 2x 
        Bm D 

A             F#m 
yang terindah hanya bisa kukenang 
              Bm Dm            A 
saat kau dan aku terbalut cinta 

A             F#m 
yang terlihat kau tak seperti biasa 
                  Bm Dm            A 
mungkin telah temukan pengganti diriku 

E                    Bm 
semua yang telah kulakukan 
             E                Bm 
tuk membuatmu slalu mencintai aku ooo 
E                   Bm 
apa yang telah kuberikan 
               E                Bm 
tak sanggup lagi buatmu tetap milikku 

[reff] 
F#m  D   A       E 
salah apa kau membenciku 
F#m  D   A     E 
salah apa kau meninggalkanku 
F#m  D       A       E       Bm   Dm 
andai ku tahu kau tak inginkan aku 

A             F#m 
yang terlihat kau tak seperti biasa 
                  Bm Dm             A 
mungkin telah temukan pengganti diriku 

[interlude] Bm F#m 4x 

E                  Bm 
apa yang telah kuberikan 
                E               Bm 
tak sanggup lagi buatmu tetap milikku 

[coda]   F#m D A E 2x 
         F#m  D       A       E       Bm   Dm 
         andai ku tahu kau tak inginkan aku



Guitar Tab

intro 

e|---------------------------------------| 
B|--10-10-9-10-10-10/12-10-9-10-10-9-----| 
G|-----------------------------------11--| 
D|---------------------------------------| 
A|---------------------------------------| 
E|---------------------------------------| 

e|---------------------------------------------------------------------------- 
B|-----9-9/10-10-12-12/14-14-14/17-17-15-14-10-12/14-14-14-14-14-14-14-14-14-- 
G|--11------------------------------------------------------------------------ 
D|---------------------------------------------------------------------------- 
A|---------------------------------------------------------------------------- 
E|---------------------------------------------------------------------------- 



-------------------------| 
-14\10-10-10-10-10-10----| 
-------------------------| 
-------------------------| 
-------------------------| 
-------------------------| 


interlude (solo) 

e|--------------------------------------------| 
B|--/10-10-9-10-9-10-9-10-10/12-9-9----9------| 
G|----------------------------------11---11-6-| 
D|--------------------------------------------| 
A|--------------------------------------------| 
E|--------------------------------------------| 

e|--------------------------------------| 
B|--/10-9-10-9-10-9-10-9-10/12-----14~--| 
G|-----------------------------11~------| 
D|--------------------------------------| 
A|--------------------------------------| 
E|--------------------------------------| 

e|---------------------| 
B|-----10----10/12-9~--| 
G|--11----11-----------| 
D|---------------------| 
A|---------------------| 
E|---------------------|

Tidak ada komentar:

Poskan Komentar