Sabtu, 01 September 2012

J-Rocks Ceria lirik dan chord lagu


J-Rocks-ceria


Intro : Em A D B 
Em A D 
Em A F#m B 
Em A D 

D          Em       
hari ini kudendangkan 
A               D 
lagu yg ingin kunyanyikan 
B               Em 
terkenang semua kenangan 
   A         D 
yg tlah kualami 

                Em 
ingin kubuka lembar baru 
A                D 
untuk meneruskan hidupku 
B            Em 
tak mau lagi kesedihan 
    A        D 
selimuti diriku 

G      A          F#m  B 
semua orang ingin bahagia 
       Em   A            D 
menjalani hidup di dunia ini 
G     A         F#m  B 
ingin kubukakan jawaban 
     Em                 A 
misteri dan senang yg sejati 

D          Em       
hari ini kudendangkan 
A               D 
lagu yg ingin kunyanyikan 
B               Em 
terkenang semua kenangan 
   A         D 
yg tlah kualami 

G Gm 

*  
Em   A            F#m   B 
berlari dan terus bernyanyi 
       Em  A            D 
mengikuti irama sang mentari 
Em   A             F#m B 
tertawa dan selalu ceria 
    Em                A   D 
berikan ku arti hidup ini 

Musik : Dm Gm C F 
Dm Gm A# C 
F#m B G#m C#m 
F#m B E 
F#m B G#m C#m 
F#m B E 

F#m  B            G#m   C# 
berlari dan terus bernyanyi 
       F#m B            E 
mengikuti irama sang mentari 
F#m  B            G#m   C# 
tertawa dan selalu ceria 
    F#m     B         E 
berikan ku arti hidup ini


Bass Tab
Ceria 
Bass 
G||-------|-------|-------|-------|-------|-------|-------|-------|-------|
D||-------|-------|-------|-------|-------|-------|-------|-------|-------|
A||-------|-------|-------|-------|-------|-------|-------|-------|-------|
E||-------|-------|-------|-------|-------|-------|-------|-------|-------|


                          Q    Q    Q    E  E     E  Q    E  Q    Q      
-------|-------|-------|-----------------------|-----------------------| 
-------|-------|-------|-----------------------|-----------------------| 
-------|-------|-------|--7----7----7----------|------------------4----| 
-------|-------|-------|--------------------5--|--L--5----5--7---------| 


  Q    Q    Q    E  E     E  Q    E  Q    Q       Q    Q    Q    E  E    
-----------------------|-----------------------|-----------------------| 
-----------------------|-----------------------|-----------------------| 
--5----5----5----------|------------------9----|--7----7----7----------| 
--------------------7--|--L--7----7--7---------|--------------------5--| 


  E  Q    E  Q    Q       Q    Q    Q    E  E     E  Q    E  Q    Q      
-----------------------|-----------------------|-----------------------| 
-----------------------|-----------------------|-----------------------| 
------------------4----|--5----5----5-------5--|--L--5----5--5---------| 
--L--5----5--7---------|-----------------------|------------------7----| 


  Q    Q    Q    E  E     E  E  E  E  Q    Q       Q    Q    Q    E  E    
-----------------------|------------------------|-----------------------| 
-----------------------|------------------------|-----------------------| 
--7----7----7----------|------------------------|-----------------------| 
--------------------5--|--L--5--7--5--3----5----|--2----2----2-------7--| 


  E  Q    E  Q    Q       Q    Q    Q    E  E     E  Q    E  Q    Q      
-----------------------|-----------------------|-----------------------| 
-----------------------|-----------------------|-----------------------| 
------------------9----|--7----7----7----------|------------------4----| 
--L--7----7--7---------|--------------------5--|--L--5----5--7---------| 


  Q    Q    Q    E  E     E  Q    E  Q    Q       W                  
-----------------------|-----------------------|--7----------------| 
-----------------------|------------------7----|-------------------| 
--5----5----5-------5--|--L--5----5--5---------|-------------------| 
-----------------------|-----------------------|-------------------| 


  W                                                                         
--L----------------|-------|-------|-------|-------|-------|-------|-------| 
-------------------|-------|-------|-------|-------|-------|-------|-------| 
-------------------|-------|-------|-------|-------|-------|-------|-------| 
-------------------|-------|-------|-------|-------|-------|-------|-------| 


-------|-------|-------|-------|-------|-------|-------|-------|-------| 
-------|-------|-------|-------|-------|-------|-------|-------|-------| 
-------|-------|-------|-------|-------|-------|-------|-------|-------| 
-------|-------|-------|-------|-------|-------|-------|-------|-------| 


  Q    Q    Q    E  E     E  Q    E  Q    Q       Q    Q    Q    E  E    
-----------------------|-----------------------|-----------------------| 
-----------------------|-----------------------|-----------------------| 
--7----7----7-------7--|-----7----7--7---------|-----------------------| 
-----------------------|--L---------------7----|--5----5----5-------5--| 


  E  Q    E  Q    Q       Q    Q    Q    E  E     E  Q    E  Q    Q      
-----------------------|-----------------------|-----------------------| 
-----------------------|-----------------------|------------------7----| 
------------------4----|--5----5----5-------5--|--L--5----5--9---------| 
--L--5----5--7---------|-----------------------|-----------------------| 


  Q    Q    Q    E  E     E  Q    E  Q    Q       Q    Q    Q    E  E    
-----------------------|-----------------------|-----------------------| 
-----------------------|-----------------------|-----------------------| 
-----------------------|------------------9----|--7----7----7-------7--| 
--7----7----7-------7--|--L--7----7--7---------|-----------------------| 


  E  Q    E  Q    Q       Q    Q    Q    E  E     E  Q    E  Q    Q      
-----------------------|-----------------------|-----------------------| 
-----------------------|-----------------------|-----------------------| 
--L--7----7--7---------|-----------------------|------------------4----| 
------------------7----|--5----5----5-------5--|--L--5----5--7---------| 


  Q    Q    Q    E  E     E  Q    E  Q    Q       H        H          
-----------------------|-----------------------|--------------------| 
-----------------------|-----------------------|--------------------| 
--5----5----5-------5--|--L--5----5--5---------|--------------------| 
-----------------------|------------------5----|--3--------3--------| 


  H        Q    Q       Q    E  E  E  E  E  E     E  E  Q    Q    Q      
---------------------|-------------------------|-----------------------| 
---------------------|-------------------------|------------------4----| 
---------------------|-------------------0--2--|--L--2--0----2---------| 
--5--------5----0----|--2----0--0--2--2--------|-----------------------| 


  Q    Q    E  E  E  E     E  E  Q    Q    Q       Q    E  E  E  E  E  E   
------------------------|-----------------------|-------------------------|
--2----2-------2--------|-----------------------|-------------------------|
------------2-----2--0--|--L----------4---------|--5----5--------4-----5--|
------------------------|-----5--7---------5----|----------7--5-----5-----|


  E  E  Q    E  E  E  E     Q    Q    E  E  E  E     E  E  Q    E  E  E  E   
-------------------------|------------------------|-------------------------| 
-------------------------|------------------------|-------------------------| 
--L--5--4----5--4-----4--|------------------------|-------------------------| 
-------------------5-----|--3----3----3--0--3--5--|--L--5--3----5--5--3--3--| 


  Q    Q    E  E  E  E     E  E  Q    E  E  E  E     Q    Q    E  E  E  E   
------------------------|-------------------------|------------------------| 
------------------------|-------------------4-----|------------------------| 
------------------0--2--|--L--2--0----2--2-----2--|-------7----------7-----| 
--2----0----2--3--------|-------------------------|--0---------0--0-----0--| 


  E  E  Q    E  E  E  E     Q    Q    E  E  E  E     E  E  E  E  E  E  E  E   
-------------------------|------------------------|--------------------------| 
-------------------------|---------------------7--|--L--7--5--5--4--4--------| 
--------7----------7-----|------------------------|--------------------7--7--| 
--L--0-------0--0-----0--|--5----5----5--5--5-----|--------------------------| 


  W                   W                   Q    Q    Q    E  E    
-------------------|-------------------|-----------------------| 
-------------------|-------------------|-----------------------| 
--5----------------|--L----------------|--7----7----7-------7--| 
-------------------|-------------------|-----------------------| 


  E  Q    E  Q    Q       Q    Q    Q    E  E     E  Q    E  Q    Q      
-----------------------|-----------------------|-----------------------| 
-----------------------|-----------------------|-----------------------| 
-----7----7--7---------|-----------------------|------------------4----| 
--L---------------7----|--5----5----5-------5--|--L--5----5--7---------| 


  Q    Q    Q    E  E     E  Q    E  Q    Q       Q    Q    Q    E  E    
-----------------------|-----------------------|-----------------------| 
-----------------------|------------------7----|-----------------------| 
--5----5----5-------5--|--L--5----5--9---------|-----------------------| 
-----------------------|-----------------------|--7----7----7-------7--| 


  E  Q    E  Q    Q       Q    Q    Q    E  E     E  Q    E  Q    Q      
-----------------------|-----------------------|-----------------------| 
-----------------------|-----------------------|-----------------------| 
------------------9----|--7----7----7-------7--|--L--7----7--7---------| 
--L--7----7--7---------|-----------------------|------------------7----| 


  Q    Q    Q    E  E     E  Q    E  Q    Q       Q    Q    Q    E  E    
-----------------------|-----------------------|-----------------------| 
-----------------------|-----------------------|-----------------------| 
-----------------------|------------------4----|--5----5----5-------5--| 
--5----5----5-------5--|--L--5----5--7---------|-----------------------| 


  E  Q    E  Q    Q       H        H           H        H          
-----------------------|--------------------|--------------------| 
-----------------------|--------------------|--------------------| 
--L--5----5--5---------|--------------------|--------------------| 
------------------5----|--3--------3--------|--3--------3--------| 


  Q    E  Q    E  Q       E  Q    E  E  E  Q       Q    Q    Q    E  E    
-----------------------|------------------------|-----------------------| 
--5----5--5----5--5----|--5--5----5--5--5--5----|-------4----5----------| 
-----------------------|------------------------|--7--------------------| 
-----------------------|------------------------|--------------------5--| 


  E  E  E  E  Q    Q       Q    Q    Q    E  E     E  E  E  E  Q    Q      
------------------------|-----------------------|------------------------| 
-----7-----7------------|-------5----7----------|------------------------| 
------------------------|--5--------------------|--------5----------5----| 
--L-----5-----5----5----|--------------------7--|--L--7-----7--5---------| 


  Q    Q    Q    E  E     E  E  E  E  Q    Q       Q    Q    E  E  E  E    
-----------------------|------------------------|------------------------| 
-------4----5-------7--|--L--7-----7------------|------------------------| 
--7--------------------|-------------------7----|--5---------4--4-----5--| 
-----------------------|--------5-----5---------|-------5----------5-----| 


  E  E  E  E  E  E  Q       Q    Q    Q    E  E     E  E  E  E  Q    Q     
-------------------------|-----------------------|------------------------|
-------------------------|-------4----5-------7--|--L--7-----7------------|
--L--5-----5--4--4-------|--7--------------------|------------------------|
--------5-----------5----|-----------------------|--------5-----5----3----|


  Q    Q    Q    E  E     E  E  E  E  Q    Q       Q    Q    Q    E  E    
-----------------------|------------------------|-----------------------| 
-----------------------|-------------------4----|-------4----5-------7--| 
--------------------2--|--L--2--0--0--2---------|--7--------------------| 
--2----0----2----------|------------------------|-----------------------| 


  E  E  E  E  Q    Q       Q    Q    E  E  E  E     E  E  E  E  E  E  Q     
------------------------|------------------------|-------------------------| 
--L--7-----7------------|------------------------|-------------------------| 
-------------------7----|--5---------4--4-----5--|--L--5-----5--4--4-------| 
--------5-----5---------|-------5----------5-----|--------5-----------5----| 


  W                   W                   Q    Q    Q    Q      
-------------------|-------------------|----------------------| 
-------------------|-------------------|-------2----3----2----| 
--5----------------|--L----------------|--5-------------------| 
-------------------|-------------------|----------------------| 


  Q    Q    Q    Q       Q    Q    Q    Q       Q    Q    Q    Q      
----------------------|----------------------|----------------------| 
----------------------|----------------------|----------------------| 
--5-------------------|-------2----0---------|-----------------5----| 
-------0----1----0----|--3--------------4----|--3----3----5---------| 


  Q    Q    Q    Q       E  E  E  E  E  E  Q       Q    Q    Q    Q      
----------------------|--5--5--4--4-------------|----------------------| 
------------2----5----|--------------7--7--5----|--3---------2----0----| 
--3----5--------------|-------------------------|-------0--------------| 
----------------------|-------------------------|----------------------| 


  Q    Q    Q    Q       Q    Q    Q     Q       S  S  S  S Q    Q    Q     
----------------------|-----------------------|-------------9--------------| 
--3-------------------|-----------------------|--9----10-------------------| 
-------0---------0----|--5----7----8----10----|----10----10------0----1----| 
------------3---------|-----------------------|----------------------------| 


  W                   W                   Q    Q    Q    Q      
-------------------|-------------------|----------------------| 
-------------------|-------------------|----------------------| 
--2----------------|--L----------------|----------------------| 
-------------------|-------------------|--6----6----6----6----| 


  Q    Q    Q    Q       W                   W                  
----------------------|-------------------|-------------------| 
----------------------|-------------------|-------------------| 
----------------------|-------------------|-------------------| 
--6----6----6----6----|--8----------------|--L----------------| 


  Q    Q    Q    E  E     E  E  E  E  Q    Q       Q    Q    Q    E  E    
-----------------------|------------------------|-----------------------| 
-------6----7-------9--|--L--9-----9------------|-------6----9----------| 
--9--------------------|-------------------9----|--7--------------------| 
-----------------------|--------7-----7---------|--------------------9--| 


  E  E  E  E  Q    Q       Q    Q    Q    E  E     E  E  E  E  Q    Q      
------------------------|-----------------------|------------------------| 
------------------------|-------6----7-------9--|--L--9-----9------------| 
--------7-----7----8----|--9--------------------|-------------------9----| 
--L--9-----9------------|-----------------------|--------7-----7---------| 


  Q    Q    E  E  E  E     E  E  E  E  E  E  Q       Q    Q    Q    E  E   
------------------------|-------------------------|-----------------------|
------------------------|-------------------------|-------6----7-------9--|
--7---------6--6-----7--|--L--7-----7--6--6-------|--9--------------------|
-------7----------7-----|--------7-----------7----|-----------------------|


  E  E  E  E  Q    Q       Q    Q    Q    E  E     E  E  E  E  Q    Q      
------------------------|-----------------------|------------------------| 
--L--9-----9------------|-----------------------|-------------------6----| 
------------------------|--------------------4--|--L--4--2--2--4---------| 
--------7-----7----5----|--4----2----4----------|------------------------| 


  Q    Q    Q    E  E     E  E  E  E  Q    Q       Q    Q    E  E  E  E    
-----------------------|------------------------|------------------------| 
-------6----7-------9--|--L--9-----9------------|------------------------| 
--9--------------------|-------------------9----|--7---------6--6-----7--| 
-----------------------|--------7-----7---------|-------7----------7-----| 


  E  E  E  E  E  E  Q       Q    Q    Q    E  E     E  E  E  E  Q    Q     
-------------------------|-----------------------|------------------------|
-------------------------|-------6----7-------9--|--L--9-----9------------|
--L--7-----7--6--6-------|--9--------------------|-------------------9----|
--------7-----------7----|-----------------------|--------7-----7---------|


  Q    Q    Q    E  E     E  E  E  E  Q     Q       Q    Q    Q    E  E    
-----------------------|-------------------------|-----------------------| 
-----------------------|-------------------------|-------6----7-------9--| 
--7---------6----------|-------------------11----|--9--------------------| 
-------7------------9--|--L--7--9--7--9----------|-----------------------| 


  E  E  E  E  Q    Q       Q    Q    E  E  E  E     E  E  E  E  E  E  Q     
------------------------|------------------------|-------------------------| 
--L--9-----9------------|------------------------|-------------------------| 
-------------------9----|--7---------6--6-----7--|--L--7-----7--6--6-------| 
--------7-----7---------|-------7----------7-----|--------7-----------7----| 


  Q    Q    Q    E  E     E  E  E  E  Q    Q       Q    Q    Q    E  E    
-----------------------|------------------------|-----------------------| 
-------6----7-------9--|--L--9-----9------------|-----------------------| 
--9--------------------|------------------------|--------------------4--| 
-----------------------|--------7-----7----5----|--4----2----4----------| 


  E  E  E  E  Q    Q       Q    Q    Q    E  E     E  E  E  E  Q    Q      
------------------------|-----------------------|------------------------| 
-------------------6----|-------6----7-------9--|--L--9-----9------------| 
--L--4--2--2--4---------|--9--------------------|-------------------9----| 
------------------------|-----------------------|--------7-----7---------| 


  Q    Q    E  E  E  E     E  E  E  E  E  E  Q       Q    Q    Q    E  E   
------------------------|-------------------------|-----------------------|
------------------------|-------------------------|-------6----7-------9--|
--7---------6--6-----7--|--L--7-----7--6--6-------|--9--------------------|
-------7----------7-----|--------7-----------7----|-----------------------|


  E  E  E  E  Q    Q       Q    Q    Q    E  E     E  E  E  E  Q     Q     
------------------------|-----------------------|-------------------------|
--L--9-----9------------|-----------------------|-------------------------|
-------------------9----|--7---------6----------|-------------------11----|
--------7-----7---------|-------7------------9--|--L--7--9--7--9----------|


  Q    Q    Q    E  E     E  E  E  E  Q    Q       Q    Q    E  E  E  E    
-----------------------|------------------------|------------------------| 
-------6----7-------9--|--L--9-----9------------|------------------------| 
--9--------------------|-------------------9----|--7---------6--6-----7--| 
-----------------------|--------7-----7---------|-------7----------7-----| 


  E  E  E  E  E  E  Q       Q    Q    Q    E  E     E  E  E  E  Q    Q     
-------------------------|-----------------------|------------------------|
-------------------------|-------6----7-------9--|--L--9-----9------------|
--L--7-----7--6--6-------|--9--------------------|------------------------|
--------7-----------7----|-----------------------|--------7-----7----5----|


  Q    Q    Q    E  E     E  E  E  E  Q    Q       Q    Q    Q    E  E    
-----------------------|------------------------|-----------------------| 
-----------------------|-------------------6----|-------6----7-------9--| 
--------------------4--|--L--4--2--2--4---------|--9--------------------| 
--4----2----4----------|------------------------|-----------------------| 


  E  E  E  E  Q    Q       W                   W                   
------------------------|-------------------|-------------------|| 
--L--9-----9------------|-------------------|-------------------|| 
-------------------9----|--7----------------|--L----------------|| 
--------7-----7---------|-------------------|-------------------|| 




Tab
Swing jazz style 
E-----------------------------------------| 
B-----------------------------------------| 
G----9s10--9--7--9s10--10--10s12--7--7s9--| 
D-----------------------------------------| 
A-----------------------------------------| 
E-----------------------------------------| 

E-----------------------------------------------------------------------------------------| 
B---13--12--11--10-------------------------------------------------------------10--10s12--| 
G--------------------12--10--9h10p9-------------------------------------------------------| 
D--------------------------------------12--10--9h10p9-------------9--10--12---------------| 
A--------------------------------------------------------12--10--12-----------------------| 
E-----------------------------------------------------------------------------------------| 

E---------------------------------------------| 
B--12--13--15--17--17b1/4--15--13--15--15b17--| 
G---------------------------------------------| 
D---------------------------------------------| 
A---------------------------------------------| 
E---------------------------------------------| 

E---------------------------------------------------------------| 
B--12--10--9h10p9-----------------------------------------------| 
G--------------------11--9--8--9--8-----------------9--8--9--8--| 
D-------------------------------------9--------------9----------| 
A-------------------------------------9--7--6--7s9--------------| 
E---------------------------------------------------------------| 

E---------------------------------6--7--8|--9--10--11--12|11-12-11------------------| 
B---------------------6--7--8--9-------------------------------------12-------------| 
G--6--8--5--6--8--9---------------------------------------------------11---9-8-9-8--| 
D-----------------------------------------------------------------------------------| 
A-----------------------------------------------------------------------------------| 
E-----------------------------------------------------------------------------------| 


E------------------------------------------12--14b1/4--12--14--12--------12---------------| 
B----------------------------------12--14-----------------------------14--12--14--12--14--| 
G—11b13--9--11-----9--11s13---------------------------------------------------------------| 
D------------------9h11-------------------------------------------------------------------| 
A-----------------------------------------------------------------------------------------| 
E-----------------------------------------------------------------------------------------| 

E--14b16--14b16--14b16--14b16--14b16--14--12-------------------------------| 
B--------------------------------------------------------------------------| 
G--------------------------------------------------------------------------| 
D--------------------------------------------------------------------------| 
A--------------------------------------------------------------------------| 
E--------------------------------------------------------------------------| 

Tidak ada komentar:

Poskan Komentar